ISO-10303-21;
HEADER;
/****************************************************************
 * Generated by software with PDE/Lib inside                    *
 * PDElib Version v51a, created Thu 12/14/2006                  *
 * International Technegroup Inc. (www.iti-oh.com)              *
 ****************************************************************/
FILE_DESCRIPTION((''),'2;1');
FILE_NAME('\\\\futek\\company\\Engineering\\New ERP Product\\Load\\LLB130\\3D Model\\LLB130.stp','2010-11-09T09:46:44',('thomasl'),(''),'Autodesk Inventor 2008','Autodesk Inventor 2008','');
FILE_SCHEMA(('AUTOMOTIVE_DESIGN { 1 0 10303 214 1 1 1 1 }'));
ENDSEC;
DATA;
#5=APPLICATION_CONTEXT('automotive design');
#6=APPLICATION_PROTOCOL_DEFINITION('International Standard','automotive_design',2001,#5);
#7=PRODUCT_CONTEXT('',#5,'mechanical');
#8=PRODUCT('LLB130 (LevelofDetail1)','LLB130 (LevelofDetail1)',$,(#7));
#9=PRODUCT_RELATED_PRODUCT_CATEGORY('part',$,(#8));
#10=PRODUCT_DEFINITION_FORMATION('',$,#8);
#11=PRODUCT_DEFINITION_CONTEXT('part definition',#5,'design');
#12=PRODUCT_DEFINITION('',$,#10,#11);
#18=(NAMED_UNIT(*)PLANE_ANGLE_UNIT()SI_UNIT($,.RADIAN.));
#19=DIMENSIONAL_EXPONENTS(0.0,0.0,0.0,0.0,0.0,0.0,0.0);
#20=PLANE_ANGLE_MEASURE_WITH_UNIT(PLANE_ANGLE_MEASURE(0.017453292500000),#18);
#24=(CONVERSION_BASED_UNIT('DEGREE',#20)NAMED_UNIT(#19)PLANE_ANGLE_UNIT());
#28=(NAMED_UNIT(*)SI_UNIT($,.STERADIAN.)SOLID_ANGLE_UNIT());
#32=(LENGTH_UNIT()NAMED_UNIT(*)SI_UNIT(.CENTI.,.METRE.));
#33=DIMENSIONAL_EXPONENTS(1.0,0.0,0.0,0.0,0.0,0.0,0.0);
#34=LENGTH_MEASURE_WITH_UNIT(LENGTH_MEASURE(2.540000000000000),#32);
#38=(CONVERSION_BASED_UNIT('INCH',#34)LENGTH_UNIT()NAMED_UNIT(#33));
#40=UNCERTAINTY_MEASURE_WITH_UNIT(LENGTH_MEASURE(0.000393700787402),#38,'DISTANCE_ACCURACY_VALUE','');
#42=(GEOMETRIC_REPRESENTATION_CONTEXT(3)GLOBAL_UNCERTAINTY_ASSIGNED_CONTEXT((#40))GLOBAL_UNIT_ASSIGNED_CONTEXT((#24,#28,#38))REPRESENTATION_CONTEXT('None','None'));
#43=AXIS2_PLACEMENT_3D('',#44,#45,#46);
#44=CARTESIAN_POINT('',(0.0,0.0,0.0));
#45=DIRECTION('',(0.0,0.0,1.0));
#46=DIRECTION('',(1.0,0.0,0.0));
#47=SHAPE_REPRESENTATION('',(#43,#565),#42);
#48=PRODUCT_DEFINITION_SHAPE('','',#12);
#49=SHAPE_DEFINITION_REPRESENTATION(#48,#47);
#50=APPLICATION_CONTEXT('automotive design');
#51=APPLICATION_PROTOCOL_DEFINITION('International Standard','automotive_design',2001,#50);
#52=PRODUCT_CONTEXT('',#50,'mechanical');
#53=PRODUCT('~PART1 (~1)','~PART1 (~1)',$,(#52));
#54=PRODUCT_RELATED_PRODUCT_CATEGORY('part',$,(#53));
#55=PRODUCT_DEFINITION_FORMATION('',$,#53);
#56=PRODUCT_DEFINITION_CONTEXT('part definition',#50,'design');
#57=PRODUCT_DEFINITION('',$,#55,#56);
#63=(NAMED_UNIT(*)PLANE_ANGLE_UNIT()SI_UNIT($,.RADIAN.));
#64=DIMENSIONAL_EXPONENTS(0.0,0.0,0.0,0.0,0.0,0.0,0.0);
#65=PLANE_ANGLE_MEASURE_WITH_UNIT(PLANE_ANGLE_MEASURE(0.017453292500000),#63);
#69=(CONVERSION_BASED_UNIT('DEGREE',#65)NAMED_UNIT(#64)PLANE_ANGLE_UNIT());
#73=(NAMED_UNIT(*)SI_UNIT($,.STERADIAN.)SOLID_ANGLE_UNIT());
#77=(LENGTH_UNIT()NAMED_UNIT(*)SI_UNIT(.CENTI.,.METRE.));
#78=DIMENSIONAL_EXPONENTS(1.0,0.0,0.0,0.0,0.0,0.0,0.0);
#79=LENGTH_MEASURE_WITH_UNIT(LENGTH_MEASURE(2.540000000000000),#77);
#83=(CONVERSION_BASED_UNIT('INCH',#79)LENGTH_UNIT()NAMED_UNIT(#78));
#85=UNCERTAINTY_MEASURE_WITH_UNIT(LENGTH_MEASURE(0.000393700787402),#83,'DISTANCE_ACCURACY_VALUE','');
#87=(GEOMETRIC_REPRESENTATION_CONTEXT(3)GLOBAL_UNCERTAINTY_ASSIGNED_CONTEXT((#85))GLOBAL_UNIT_ASSIGNED_CONTEXT((#69,#73,#83))REPRESENTATION_CONTEXT('None','None'));
#88=AXIS2_PLACEMENT_3D('',#89,#90,#91);
#89=CARTESIAN_POINT('',(0.0,0.0,0.0));
#90=DIRECTION('',(0.0,0.0,1.0));
#91=DIRECTION('',(1.0,0.0,0.0));
#92=SHAPE_REPRESENTATION('',(#88,#223,#553),#87);
#93=PRODUCT_DEFINITION_SHAPE('','',#57);
#94=SHAPE_DEFINITION_REPRESENTATION(#93,#92);
#95=APPLICATION_CONTEXT('automotive design');
#96=APPLICATION_PROTOCOL_DEFINITION('International Standard','automotive_design',2001,#95);
#97=PRODUCT_CONTEXT('',#95,'mechanical');
#98=PRODUCT('7117','7117',$,(#97));
#99=PRODUCT_RELATED_PRODUCT_CATEGORY('part',$,(#98));
#100=PRODUCT_DEFINITION_FORMATION('',$,#98);
#101=PRODUCT_DEFINITION_CONTEXT('part definition',#95,'design');
#102=PRODUCT_DEFINITION('',$,#100,#101);
#108=(NAMED_UNIT(*)PLANE_ANGLE_UNIT()SI_UNIT($,.RADIAN.));
#109=DIMENSIONAL_EXPONENTS(0.0,0.0,0.0,0.0,0.0,0.0,0.0);
#110=PLANE_ANGLE_MEASURE_WITH_UNIT(PLANE_ANGLE_MEASURE(0.017453292500000),#108);
#114=(CONVERSION_BASED_UNIT('DEGREE',#110)NAMED_UNIT(#109)PLANE_ANGLE_UNIT());
#118=(NAMED_UNIT(*)SI_UNIT($,.STERADIAN.)SOLID_ANGLE_UNIT());
#122=(LENGTH_UNIT()NAMED_UNIT(*)SI_UNIT(.CENTI.,.METRE.));
#123=DIMENSIONAL_EXPONENTS(1.0,0.0,0.0,0.0,0.0,0.0,0.0);
#124=LENGTH_MEASURE_WITH_UNIT(LENGTH_MEASURE(2.540000000000000),#122);
#128=(CONVERSION_BASED_UNIT('INCH',#124)LENGTH_UNIT()NAMED_UNIT(#123));
#130=UNCERTAINTY_MEASURE_WITH_UNIT(LENGTH_MEASURE(0.000393700787402),#128,'DISTANCE_ACCURACY_VALUE','');
#132=(GEOMETRIC_REPRESENTATION_CONTEXT(3)GLOBAL_UNCERTAINTY_ASSIGNED_CONTEXT((#130))GLOBAL_UNIT_ASSIGNED_CONTEXT((#114,#118,#128))REPRESENTATION_CONTEXT('None','None'));
#133=AXIS2_PLACEMENT_3D('',#134,#135,#136);
#134=CARTESIAN_POINT('',(0.0,0.0,0.0));
#135=DIRECTION('',(0.0,0.0,1.0));
#136=DIRECTION('',(1.0,0.0,0.0));
#137=SHAPE_REPRESENTATION('',(#133),#132);
#138=PRODUCT_DEFINITION_SHAPE('','',#102);
#139=SHAPE_DEFINITION_REPRESENTATION(#138,#137);
#145=(NAMED_UNIT(*)PLANE_ANGLE_UNIT()SI_UNIT($,.RADIAN.));
#146=DIMENSIONAL_EXPONENTS(0.0,0.0,0.0,0.0,0.0,0.0,0.0);
#147=PLANE_ANGLE_MEASURE_WITH_UNIT(PLANE_ANGLE_MEASURE(0.017453292500000),#145);
#151=(CONVERSION_BASED_UNIT('DEGREE',#147)NAMED_UNIT(#146)PLANE_ANGLE_UNIT());
#155=(NAMED_UNIT(*)SI_UNIT($,.STERADIAN.)SOLID_ANGLE_UNIT());
#159=(LENGTH_UNIT()NAMED_UNIT(*)SI_UNIT(.MILLI.,.METRE.));
#161=UNCERTAINTY_MEASURE_WITH_UNIT(LENGTH_MEASURE(0.000001000000000),#159,'DISTANCE_ACCURACY_VALUE','');
#163=(GEOMETRIC_REPRESENTATION_CONTEXT(3)GLOBAL_UNCERTAINTY_ASSIGNED_CONTEXT((#161))GLOBAL_UNIT_ASSIGNED_CONTEXT((#151,#155,#159))REPRESENTATION_CONTEXT('','3D'));
#164=CARTESIAN_POINT('',(7.878825195357953,1.822972158127584,-0.627499999999998));
#165=DIRECTION('',(0.0,0.0,1.0));
#166=DIRECTION('',(1.0,0.0,0.0));
#167=AXIS2_PLACEMENT_3D('',#164,#165,#166);
#168=CYLINDRICAL_SURFACE('',#167,0.022500000000000);
#169=CARTESIAN_POINT('',(7.856325195357953,1.822972158127584,-0.627499999999998));
#170=VERTEX_POINT('',#169);
#171=CARTESIAN_POINT('',(7.878825195357953,1.822972158127584,-0.627499999999998));
#172=DIRECTION('',(0.0,0.0,1.0));
#173=DIRECTION('',(1.0,0.0,0.0));
#174=AXIS2_PLACEMENT_3D('',#171,#172,#173);
#175=CIRCLE('',#174,0.022500000000000);
#176=EDGE_CURVE('',#170,#170,#175,.T.);
#177=ORIENTED_EDGE('',*,*,#176,.T.);
#178=EDGE_LOOP('',(#177));
#179=FACE_OUTER_BOUND('',#178,.T.);
#180=CARTESIAN_POINT('',(7.856325195357953,1.822972158127584,-0.127499999999998));
#181=VERTEX_POINT('',#180);
#182=CARTESIAN_POINT('',(7.878825195357953,1.822972158127584,-0.127499999999998));
#183=DIRECTION('',(0.0,0.0,-1.0));
#184=DIRECTION('',(1.0,0.0,0.0));
#185=AXIS2_PLACEMENT_3D('',#182,#183,#184);
#186=CIRCLE('',#185,0.022500000000000);
#187=EDGE_CURVE('',#181,#181,#186,.T.);
#188=ORIENTED_EDGE('',*,*,#187,.T.);
#189=EDGE_LOOP('',(#188));
#190=FACE_BOUND('',#189,.T.);
#191=ADVANCED_FACE('',(#179,#190),#168,.T.);
#192=CARTESIAN_POINT('',(7.878825195357953,1.822972158127584,-0.127499999999998));
#193=DIRECTION('',(0.0,0.0,1.0));
#194=DIRECTION('',(1.0,0.0,0.0));
#195=AXIS2_PLACEMENT_3D('',#192,#193,#194);
#196=PLANE('',#195);
#197=ORIENTED_EDGE('',*,*,#187,.F.);
#198=EDGE_LOOP('',(#197));
#199=FACE_OUTER_BOUND('',#198,.T.);
#200=ADVANCED_FACE('',(#199),#196,.T.);
#201=CARTESIAN_POINT('',(7.878825195357953,1.822972158127584,-0.627499999999998));
#202=DIRECTION('',(0.0,0.0,1.0));
#203=DIRECTION('',(1.0,0.0,0.0));
#204=AXIS2_PLACEMENT_3D('',#201,#202,#203);
#205=PLANE('',#204);
#206=ORIENTED_EDGE('',*,*,#176,.F.);
#207=EDGE_LOOP('',(#206));
#208=FACE_OUTER_BOUND('',#207,.T.);
#209=ADVANCED_FACE('',(#208),#205,.F.);
#210=CLOSED_SHELL('',(#191,#200,#209));
#211=MANIFOLD_SOLID_BREP('',#210);
#212=COLOUR_RGB('Default',0.752941012382507,0.752941012382507,0.752941012382507);
#213=FILL_AREA_STYLE_COLOUR('Default',#212);
#214=FILL_AREA_STYLE('Default',(#213));
#215=SURFACE_STYLE_FILL_AREA(#214);
#216=SURFACE_SIDE_STYLE('Default',(#215));
#217=SURFACE_STYLE_USAGE(.BOTH.,#216);
#218=PRESENTATION_STYLE_ASSIGNMENT((#217));
#219=STYLED_ITEM('',(#218),#211);
#220=MECHANICAL_DESIGN_GEOMETRIC_PRESENTATION_REPRESENTATION('',(#219,#550),#42);
#221=ADVANCED_BREP_SHAPE_REPRESENTATION('ABSR',(#211),#132);
#222=SHAPE_REPRESENTATION_RELATIONSHIP('SRR','None',#221,#137);
#223=AXIS2_PLACEMENT_3D('',#224,#225,#226);
#224=CARTESIAN_POINT('',(0.0,0.0,0.0));
#225=DIRECTION('',(0.0,0.0,1.0));
#226=DIRECTION('',(1.0,0.0,0.0));
#227=NEXT_ASSEMBLY_USAGE_OCCURRENCE('7117:1','7117:1','7117:1',#57,#102,'7117:1');
#228=PRODUCT_DEFINITION_SHAPE('7117:1','7117:1',#227);
#229=ITEM_DEFINED_TRANSFORMATION('7117:1','7117:1',#133,#223);
#233=(REPRESENTATION_RELATIONSHIP('7117:1','7117:1',#137,#92)REPRESENTATION_RELATIONSHIP_WITH_TRANSFORMATION(#229)SHAPE_REPRESENTATION_RELATIONSHIP());
#234=CONTEXT_DEPENDENT_SHAPE_REPRESENTATION(#233,#228);
#235=APPLICATION_CONTEXT('automotive design');
#236=APPLICATION_PROTOCOL_DEFINITION('International Standard','automotive_design',2001,#235);
#237=PRODUCT_CONTEXT('',#235,'mechanical');
#238=PRODUCT('7117A','7117A',$,(#237));
#239=PRODUCT_RELATED_PRODUCT_CATEGORY('part',$,(#238));
#240=PRODUCT_DEFINITION_FORMATION('',$,#238);
#241=PRODUCT_DEFINITION_CONTEXT('part definition',#235,'design');
#242=PRODUCT_DEFINITION('',$,#240,#241);
#248=(NAMED_UNIT(*)PLANE_ANGLE_UNIT()SI_UNIT($,.RADIAN.));
#249=DIMENSIONAL_EXPONENTS(0.0,0.0,0.0,0.0,0.0,0.0,0.0);
#250=PLANE_ANGLE_MEASURE_WITH_UNIT(PLANE_ANGLE_MEASURE(0.017453292500000),#248);
#254=(CONVERSION_BASED_UNIT('DEGREE',#250)NAMED_UNIT(#249)PLANE_ANGLE_UNIT());
#258=(NAMED_UNIT(*)SI_UNIT($,.STERADIAN.)SOLID_ANGLE_UNIT());
#262=(LENGTH_UNIT()NAMED_UNIT(*)SI_UNIT(.CENTI.,.METRE.));
#263=DIMENSIONAL_EXPONENTS(1.0,0.0,0.0,0.0,0.0,0.0,0.0);
#264=LENGTH_MEASURE_WITH_UNIT(LENGTH_MEASURE(2.540000000000000),#262);
#268=(CONVERSION_BASED_UNIT('INCH',#264)LENGTH_UNIT()NAMED_UNIT(#263));
#270=UNCERTAINTY_MEASURE_WITH_UNIT(LENGTH_MEASURE(0.000393700787402),#268,'DISTANCE_ACCURACY_VALUE','');
#272=(GEOMETRIC_REPRESENTATION_CONTEXT(3)GLOBAL_UNCERTAINTY_ASSIGNED_CONTEXT((#270))GLOBAL_UNIT_ASSIGNED_CONTEXT((#254,#258,#268))REPRESENTATION_CONTEXT('None','None'));
#273=AXIS2_PLACEMENT_3D('',#274,#275,#276);
#274=CARTESIAN_POINT('',(0.0,0.0,0.0));
#275=DIRECTION('',(0.0,0.0,1.0));
#276=DIRECTION('',(1.0,0.0,0.0));
#277=SHAPE_REPRESENTATION('',(#273),#272);
#278=PRODUCT_DEFINITION_SHAPE('','',#242);
#279=SHAPE_DEFINITION_REPRESENTATION(#278,#277);
#285=(NAMED_UNIT(*)PLANE_ANGLE_UNIT()SI_UNIT($,.RADIAN.));
#286=DIMENSIONAL_EXPONENTS(0.0,0.0,0.0,0.0,0.0,0.0,0.0);
#287=PLANE_ANGLE_MEASURE_WITH_UNIT(PLANE_ANGLE_MEASURE(0.017453292500000),#285);
#291=(CONVERSION_BASED_UNIT('DEGREE',#287)NAMED_UNIT(#286)PLANE_ANGLE_UNIT());
#295=(NAMED_UNIT(*)SI_UNIT($,.STERADIAN.)SOLID_ANGLE_UNIT());
#299=(LENGTH_UNIT()NAMED_UNIT(*)SI_UNIT(.MILLI.,.METRE.));
#301=UNCERTAINTY_MEASURE_WITH_UNIT(LENGTH_MEASURE(0.000001000000000),#299,'DISTANCE_ACCURACY_VALUE','');
#303=(GEOMETRIC_REPRESENTATION_CONTEXT(3)GLOBAL_UNCERTAINTY_ASSIGNED_CONTEXT((#301))GLOBAL_UNIT_ASSIGNED_CONTEXT((#291,#295,#299))REPRESENTATION_CONTEXT('','3D'));
#304=CARTESIAN_POINT('',(7.878825195357953,1.786972158127574,1.836910E-018));
#305=DIRECTION('',(0.0,-1.0,0.0));
#306=DIRECTION('',(-1.0,0.0,0.0));
#307=AXIS2_PLACEMENT_3D('',#304,#305,#306);
#308=CYLINDRICAL_SURFACE('',#307,0.151500000000000);
#309=CARTESIAN_POINT('',(8.030325195357953,1.786972158127583,5.402945E-017));
#310=VERTEX_POINT('',#309);
#311=CARTESIAN_POINT('',(7.878825195357953,1.786972158127583,1.836910E-018));
#312=DIRECTION('',(0.0,1.0,0.0));
#313=DIRECTION('',(-1.0,0.0,0.0));
#314=AXIS2_PLACEMENT_3D('',#311,#312,#313);
#315=CIRCLE('',#314,0.151500000000000);
#316=EDGE_CURVE('',#310,#310,#315,.T.);
#317=ORIENTED_EDGE('',*,*,#316,.F.);
#318=EDGE_LOOP('',(#317));
#319=FACE_OUTER_BOUND('',#318,.T.);
#320=CARTESIAN_POINT('',(8.030325195357953,1.774972158127575,5.623374E-017));
#321=VERTEX_POINT('',#320);
#322=CARTESIAN_POINT('',(7.878825195357953,1.774972158127575,4.041201E-018));
#323=DIRECTION('',(0.0,1.0,0.0));
#324=DIRECTION('',(-1.0,0.0,0.0));
#325=AXIS2_PLACEMENT_3D('',#322,#323,#324);
#326=CIRCLE('',#325,0.151500000000000);
#327=EDGE_CURVE('',#321,#321,#326,.T.);
#328=ORIENTED_EDGE('',*,*,#327,.T.);
#329=EDGE_LOOP('',(#328));
#330=FACE_BOUND('',#329,.T.);
#331=ADVANCED_FACE('',(#319,#330),#308,.T.);
#332=CARTESIAN_POINT('',(7.878825195357953,1.822972158127572,-1.0));
#333=DIRECTION('',(0.0,0.0,-1.0));
#334=DIRECTION('',(1.0,0.0,0.0));
#335=AXIS2_PLACEMENT_3D('',#332,#333,#334);
#336=CYLINDRICAL_SURFACE('',#335,0.026000000000000);
#337=CARTESIAN_POINT('',(7.904825195357954,1.822972158127572,-0.185688583386271));
#338=VERTEX_POINT('',#337);
#339=CARTESIAN_POINT('',(7.852825195357954,1.822972158127572,-0.185688583386271));
#340=VERTEX_POINT('',#339);
#341=CARTESIAN_POINT('',(7.904825195357953,1.822972158127572,-0.185688583386271));
#342=CARTESIAN_POINT('',(7.904825195357953,1.826241324695788,-0.185688583386271));
#343=CARTESIAN_POINT('',(7.904170987950257,1.829725478925841,-0.185783831509523));
#344=CARTESIAN_POINT('',(7.901516292391206,1.836130071221304,-0.186126718535917));
#345=CARTESIAN_POINT('',(7.899516031742709,1.839050874364517,-0.186369280802083));
#346=CARTESIAN_POINT('',(7.894903940869860,1.843662965237367,-0.186823695883098));
#347=CARTESIAN_POINT('',(7.891983125052104,1.845663248841992,-0.187065236529269));
#348=CARTESIAN_POINT('',(7.885578489627755,1.848317961153873,-0.187405781254828));
#349=CARTESIAN_POINT('',(7.882094320424770,1.848972158127573,-0.187500000000000));
#350=CARTESIAN_POINT('',(7.875556070291138,1.848972158127573,-0.187500000000000));
#351=CARTESIAN_POINT('',(7.872071901088154,1.848317961153873,-0.187405781254828));
#352=CARTESIAN_POINT('',(7.865667265663801,1.845663248841992,-0.187065236529269));
#353=CARTESIAN_POINT('',(7.862746449846048,1.843662965237367,-0.186823695883098));
#354=CARTESIAN_POINT('',(7.858134358973199,1.839050874364517,-0.186369280802083));
#355=CARTESIAN_POINT('',(7.856134098324700,1.836130071221303,-0.186126718535917));
#356=CARTESIAN_POINT('',(7.853479402765647,1.829725478925840,-0.185783831509523));
#357=CARTESIAN_POINT('',(7.852825195357953,1.826241324695788,-0.185688583386271));
#358=CARTESIAN_POINT('',(7.852825195357953,1.822972158127572,-0.185688583386271));
#359=B_SPLINE_CURVE_WITH_KNOTS('',3,(#341,#342,#343,#344,#345,#346,#347,#348,#349,#350,#351,#352,#353,#354,#355,#356,#357,#358),.UNSPECIFIED.,.F.,.U.,(4,2,2,2,2,2,2,2,4),(0.078459499620370,0.088266999325018,0.098074499029666,0.107881874230110,0.117689249430555,0.127496624631000,0.137303999831445,0.147111499536093,0.156918999240740),.UNSPECIFIED.);
#360=EDGE_CURVE('',#338,#340,#359,.T.);
#361=ORIENTED_EDGE('',*,*,#360,.F.);
#362=CARTESIAN_POINT('',(7.852825195357953,1.822972158127572,-0.185688583386271));
#363=CARTESIAN_POINT('',(7.852825195357953,1.819702991559356,-0.185688583386271));
#364=CARTESIAN_POINT('',(7.853479402765647,1.816218837329303,-0.185783831509523));
#365=CARTESIAN_POINT('',(7.856134098324703,1.809814245033840,-0.186126718535917));
#366=CARTESIAN_POINT('',(7.858134358973199,1.806893441890628,-0.186369280802083));
#367=CARTESIAN_POINT('',(7.862746449846048,1.802281351017777,-0.186823695883098));
#368=CARTESIAN_POINT('',(7.865667265663801,1.800281067413152,-0.187065236529269));
#369=CARTESIAN_POINT('',(7.872071901088154,1.797626355101271,-0.187405781254828));
#370=CARTESIAN_POINT('',(7.875556070291138,1.796972158127572,-0.187500000000000));
#371=CARTESIAN_POINT('',(7.882094320424770,1.796972158127572,-0.187500000000000));
#372=CARTESIAN_POINT('',(7.885578489627755,1.797626355101271,-0.187405781254828));
#373=CARTESIAN_POINT('',(7.891983125052104,1.800281067413152,-0.187065236529269));
#374=CARTESIAN_POINT('',(7.894903940869860,1.802281351017777,-0.186823695883098));
#375=CARTESIAN_POINT('',(7.899516031742709,1.806893441890628,-0.186369280802083));
#376=CARTESIAN_POINT('',(7.901516292391206,1.809814245033840,-0.186126718535917));
#377=CARTESIAN_POINT('',(7.904170987950257,1.816218837329303,-0.185783831509523));
#378=CARTESIAN_POINT('',(7.904825195357953,1.819702991559356,-0.185688583386271));
#379=CARTESIAN_POINT('',(7.904825195357953,1.822972158127572,-0.185688583386271));
#380=B_SPLINE_CURVE_WITH_KNOTS('',3,(#362,#363,#364,#365,#366,#367,#368,#369,#370,#371,#372,#373,#374,#375,#376,#377,#378,#379),.UNSPECIFIED.,.F.,.U.,(4,2,2,2,2,2,2,2,4),(0.0,0.009807499704648,0.019614999409295,0.029422374609740,0.039229749810185,0.049037125010630,0.058844500211075,0.068651999915723,0.078459499620370),.UNSPECIFIED.);
#381=EDGE_CURVE('',#340,#338,#380,.T.);
#382=ORIENTED_EDGE('',*,*,#381,.F.);
#383=EDGE_LOOP('',(#361,#382));
#384=FACE_OUTER_BOUND('',#383,.T.);
#385=CARTESIAN_POINT('',(7.852825195357954,1.822972158127572,-1.110223E-016));
#386=VERTEX_POINT('',#385);
#387=CARTESIAN_POINT('',(7.878825195357953,1.822972158127572,0.0));
#388=DIRECTION('',(0.0,0.0,1.0));
#389=DIRECTION('',(1.0,0.0,0.0));
#390=AXIS2_PLACEMENT_3D('',#387,#388,#389);
#391=CIRCLE('',#390,0.026000000000000);
#392=EDGE_CURVE('',#386,#386,#391,.T.);
#393=ORIENTED_EDGE('',*,*,#392,.T.);
#394=EDGE_LOOP('',(#393));
#395=FACE_BOUND('',#394,.T.);
#396=ADVANCED_FACE('',(#384,#395),#336,.F.);
#397=CARTESIAN_POINT('',(7.878825195357953,1.779972158127578,0.0));
#398=DIRECTION('',(0.0,1.0,0.0));
#399=DIRECTION('',(-1.0,0.0,0.0));
#400=AXIS2_PLACEMENT_3D('',#397,#398,#399);
#401=CYLINDRICAL_SURFACE('',#400,0.155000000000000);
#402=CARTESIAN_POINT('',(8.033825195357952,1.772972158127573,-1.898140E-017));
#403=VERTEX_POINT('',#402);
#404=CARTESIAN_POINT('',(7.878825195357953,1.772972158127573,0.0));
#405=DIRECTION('',(0.0,1.0,0.0));
#406=DIRECTION('',(-1.0,0.0,0.0));
#407=AXIS2_PLACEMENT_3D('',#404,#405,#406);
#408=CIRCLE('',#407,0.155000000000000);
#409=EDGE_CURVE('',#403,#403,#408,.T.);
#410=ORIENTED_EDGE('',*,*,#409,.F.);
#411=EDGE_LOOP('',(#410));
#412=FACE_OUTER_BOUND('',#411,.T.);
#413=CARTESIAN_POINT('',(8.033825195357952,1.786972158127583,-1.898140E-017));
#414=VERTEX_POINT('',#413);
#415=CARTESIAN_POINT('',(7.878825195357953,1.786972158127583,0.0));
#416=DIRECTION('',(0.0,1.0,0.0));
#417=DIRECTION('',(-1.0,0.0,0.0));
#418=AXIS2_PLACEMENT_3D('',#415,#416,#417);
#419=CIRCLE('',#418,0.155000000000000);
#420=EDGE_CURVE('',#414,#414,#419,.T.);
#421=ORIENTED_EDGE('',*,*,#420,.T.);
#422=EDGE_LOOP('',(#421));
#423=FACE_BOUND('',#422,.T.);
#424=ADVANCED_FACE('',(#412,#423),#401,.F.);
#425=CARTESIAN_POINT('',(7.878825195357953,1.827972158127572,0.0));
#426=DIRECTION('',(0.0,1.0,0.0));
#427=DIRECTION('',(-1.0,0.0,0.0));
#428=AXIS2_PLACEMENT_3D('',#425,#426,#427);
#429=CYLINDRICAL_SURFACE('',#428,0.187500000000000);
#430=CARTESIAN_POINT('',(8.066325195357953,1.772972158127573,-2.296137E-017));
#431=VERTEX_POINT('',#430);
#432=CARTESIAN_POINT('',(7.878825195357953,1.772972158127573,0.0));
#433=DIRECTION('',(0.0,1.0,0.0));
#434=DIRECTION('',(-1.0,0.0,0.0));
#435=AXIS2_PLACEMENT_3D('',#432,#433,#434);
#436=CIRCLE('',#435,0.187500000000000);
#437=EDGE_CURVE('',#431,#431,#436,.T.);
#438=ORIENTED_EDGE('',*,*,#437,.T.);
#439=EDGE_LOOP('',(#438));
#440=FACE_OUTER_BOUND('',#439,.T.);
#441=CARTESIAN_POINT('',(8.066325195357953,1.882972158127572,-2.296137E-017));
#442=VERTEX_POINT('',#441);
#443=CARTESIAN_POINT('',(7.878825195357953,1.882972158127572,0.0));
#444=DIRECTION('',(0.0,1.0,0.0));
#445=DIRECTION('',(-1.0,0.0,0.0));
#446=AXIS2_PLACEMENT_3D('',#443,#444,#445);
#447=CIRCLE('',#446,0.187500000000000);
#448=EDGE_CURVE('',#442,#442,#447,.T.);
#449=ORIENTED_EDGE('',*,*,#448,.F.);
#450=EDGE_LOOP('',(#449));
#451=FACE_BOUND('',#450,.T.);
#452=ORIENTED_EDGE('',*,*,#381,.T.);
#453=ORIENTED_EDGE('',*,*,#360,.T.);
#454=EDGE_LOOP('',(#452,#453));
#455=FACE_BOUND('',#454,.T.);
#456=ADVANCED_FACE('',(#440,#451,#455),#429,.T.);
#457=CARTESIAN_POINT('',(7.878825195357953,1.891617262817440,0.0));
#458=DIRECTION('',(0.0,1.0,0.0));
#459=DIRECTION('',(-1.0,0.0,0.0));
#460=AXIS2_PLACEMENT_3D('',#457,#458,#459);
#461=CYLINDRICAL_SURFACE('',#460,0.045000000000000);
#462=CARTESIAN_POINT('',(7.923825195357953,1.882972158127572,-5.510729E-018));
#463=VERTEX_POINT('',#462);
#464=CARTESIAN_POINT('',(7.878825195357953,1.882972158127572,0.0));
#465=DIRECTION('',(0.0,1.0,0.0));
#466=DIRECTION('',(-1.0,0.0,0.0));
#467=AXIS2_PLACEMENT_3D('',#464,#465,#466);
#468=CIRCLE('',#467,0.045000000000000);
#469=EDGE_CURVE('',#463,#463,#468,.T.);
#470=ORIENTED_EDGE('',*,*,#469,.T.);
#471=EDGE_LOOP('',(#470));
#472=FACE_OUTER_BOUND('',#471,.T.);
#473=CARTESIAN_POINT('',(7.923825195357953,1.900262367507308,-5.510729E-018));
#474=VERTEX_POINT('',#473);
#475=CARTESIAN_POINT('',(7.878825195357953,1.900262367507308,0.0));
#476=DIRECTION('',(0.0,1.0,0.0));
#477=DIRECTION('',(-1.0,0.0,0.0));
#478=AXIS2_PLACEMENT_3D('',#475,#476,#477);
#479=CIRCLE('',#478,0.045000000000000);
#480=EDGE_CURVE('',#474,#474,#479,.T.);
#481=ORIENTED_EDGE('',*,*,#480,.F.);
#482=EDGE_LOOP('',(#481));
#483=FACE_BOUND('',#482,.T.);
#484=ADVANCED_FACE('',(#472,#483),#461,.T.);
#485=CARTESIAN_POINT('',(7.878825195357955,1.527972158127582,0.0));
#486=DIRECTION('',(0.0,0.0,1.0));
#487=DIRECTION('',(1.0,0.0,0.0));
#488=AXIS2_PLACEMENT_3D('',#485,#486,#487);
#489=SPHERICAL_SURFACE('',#488,0.375000000000001);
#490=ORIENTED_EDGE('',*,*,#480,.T.);
#491=EDGE_LOOP('',(#490));
#492=FACE_OUTER_BOUND('',#491,.T.);
#493=ADVANCED_FACE('',(#492),#489,.T.);
#494=CARTESIAN_POINT('',(7.762575195357953,1.882972158127572,0.0));
#495=DIRECTION('',(0.0,1.0,0.0));
#496=DIRECTION('',(0.0,0.0,1.0));
#497=AXIS2_PLACEMENT_3D('',#494,#495,#496);
#498=PLANE('',#497);
#499=ORIENTED_EDGE('',*,*,#448,.T.);
#500=EDGE_LOOP('',(#499));
#501=FACE_OUTER_BOUND('',#500,.T.);
#502=ORIENTED_EDGE('',*,*,#469,.F.);
#503=EDGE_LOOP('',(#502));
#504=FACE_BOUND('',#503,.T.);
#505=ADVANCED_FACE('',(#501,#504),#498,.T.);
#506=CARTESIAN_POINT('',(7.707575195357952,1.772972158127573,0.0));
#507=DIRECTION('',(0.0,-1.0,0.0));
#508=DIRECTION('',(0.0,0.0,-1.0));
#509=AXIS2_PLACEMENT_3D('',#506,#507,#508);
#510=PLANE('',#509);
#511=ORIENTED_EDGE('',*,*,#437,.F.);
#512=EDGE_LOOP('',(#511));
#513=FACE_OUTER_BOUND('',#512,.T.);
#514=ORIENTED_EDGE('',*,*,#409,.T.);
#515=EDGE_LOOP('',(#514));
#516=FACE_BOUND('',#515,.T.);
#517=ADVANCED_FACE('',(#513,#516),#510,.T.);
#518=CARTESIAN_POINT('',(7.737575195357953,1.786972158127583,0.0));
#519=DIRECTION('',(0.0,-1.0,0.0));
#520=DIRECTION('',(0.0,0.0,-1.0));
#521=AXIS2_PLACEMENT_3D('',#518,#519,#520);
#522=PLANE('',#521);
#523=ORIENTED_EDGE('',*,*,#420,.F.);
#524=EDGE_LOOP('',(#523));
#525=FACE_OUTER_BOUND('',#524,.T.);
#526=ORIENTED_EDGE('',*,*,#316,.T.);
#527=EDGE_LOOP('',(#526));
#528=FACE_BOUND('',#527,.T.);
#529=ADVANCED_FACE('',(#525,#528),#522,.T.);
#530=CARTESIAN_POINT('',(7.878825195357953,1.822972158127572,0.0));
#531=DIRECTION('',(0.0,0.0,1.0));
#532=DIRECTION('',(1.0,0.0,0.0));
#533=AXIS2_PLACEMENT_3D('',#530,#531,#532);
#534=PLANE('',#533);
#535=ORIENTED_EDGE('',*,*,#392,.F.);
#536=EDGE_LOOP('',(#535));
#537=FACE_OUTER_BOUND('',#536,.T.);
#538=ADVANCED_FACE('',(#537),#534,.F.);
#539=CARTESIAN_POINT('',(7.878825195357953,1.774972158127575,4.041201E-018));
#540=DIRECTION('',(0.0,1.0,0.0));
#541=DIRECTION('',(0.0,0.0,1.0));
#542=AXIS2_PLACEMENT_3D('',#539,#540,#541);
#543=PLANE('',#542);
#544=ORIENTED_EDGE('',*,*,#327,.F.);
#545=EDGE_LOOP('',(#544));
#546=FACE_OUTER_BOUND('',#545,.T.);
#547=ADVANCED_FACE('',(#546),#543,.F.);
#548=CLOSED_SHELL('',(#331,#396,#424,#456,#484,#493,#505,#517,#529,#538,#547));
#549=MANIFOLD_SOLID_BREP('',#548);
#550=STYLED_ITEM('',(#218),#549);
#551=ADVANCED_BREP_SHAPE_REPRESENTATION('ABSR',(#549),#272);
#552=SHAPE_REPRESENTATION_RELATIONSHIP('SRR','None',#551,#277);
#553=AXIS2_PLACEMENT_3D('',#554,#555,#556);
#554=CARTESIAN_POINT('',(0.0,0.0,0.0));
#555=DIRECTION('',(0.0,0.0,1.0));
#556=DIRECTION('',(1.0,0.0,0.0));
#557=NEXT_ASSEMBLY_USAGE_OCCURRENCE('7117A:1','7117A:1','7117A:1',#57,#242,'7117A:1');
#558=PRODUCT_DEFINITION_SHAPE('7117A:1','7117A:1',#557);
#559=ITEM_DEFINED_TRANSFORMATION('7117A:1','7117A:1',#273,#553);
#563=(REPRESENTATION_RELATIONSHIP('7117A:1','7117A:1',#277,#92)REPRESENTATION_RELATIONSHIP_WITH_TRANSFORMATION(#559)SHAPE_REPRESENTATION_RELATIONSHIP());
#564=CONTEXT_DEPENDENT_SHAPE_REPRESENTATION(#563,#558);
#565=AXIS2_PLACEMENT_3D('',#566,#567,#568);
#566=CARTESIAN_POINT('',(236.502422597386380,-107.024706758122530,12.751126903375917));
#567=DIRECTION('',(1.0,0.0,0.0));
#568=DIRECTION('',(0.0,0.0,-1.0));
#569=NEXT_ASSEMBLY_USAGE_OCCURRENCE('~PART1:1','~PART1:1','~PART1:1',#12,#57,'~PART1:1');
#570=PRODUCT_DEFINITION_SHAPE('~PART1:1','~PART1:1',#569);
#571=ITEM_DEFINED_TRANSFORMATION('~PART1:1','~PART1:1',#88,#565);
#575=(REPRESENTATION_RELATIONSHIP('~PART1:1','~PART1:1',#92,#47)REPRESENTATION_RELATIONSHIP_WITH_TRANSFORMATION(#571)SHAPE_REPRESENTATION_RELATIONSHIP());
#576=CONTEXT_DEPENDENT_SHAPE_REPRESENTATION(#575,#570);
ENDSEC;
END-ISO-10303-21;
